ISO-10303-21;
HEADER;
FILE_DESCRIPTION((''),'2;1');
FILE_NAME('AT4214','2021-01-06T',('Administrator'),(''),
'PRO/ENGINEER BY PARAMETRIC TECHNOLOGY CORPORATION, 2010280',
'PRO/ENGINEER BY PARAMETRIC TECHNOLOGY CORPORATION, 2010280','');
FILE_SCHEMA(('CONFIG_CONTROL_DESIGN'));
ENDSEC;
DATA;
#1=CARTESIAN_POINT('',(0.E0,0.E0,0.E0));
#2=DIRECTION('',(-1.E0,0.E0,0.E0));
#3=DIRECTION('',(0.E0,1.E0,0.E0));
#4=AXIS2_PLACEMENT_3D('',#1,#2,#3);
#6=CARTESIAN_POINT('',(0.E0,0.E0,0.E0));
#7=DIRECTION('',(1.E0,0.E0,0.E0));
#8=DIRECTION('',(0.E0,1.E0,0.E0));
#9=AXIS2_PLACEMENT_3D('',#6,#7,#8);
#11=CARTESIAN_POINT('',(0.E0,0.E0,-1.895960280561E-13));
#12=DIRECTION('',(-1.E0,0.E0,0.E0));
#13=DIRECTION('',(0.E0,1.E0,0.E0));
#14=AXIS2_PLACEMENT_3D('',#11,#12,#13);
#16=CARTESIAN_POINT('',(0.E0,0.E0,0.E0));
#17=DIRECTION('',(-1.E0,0.E0,0.E0));
#18=DIRECTION('',(0.E0,-1.E0,0.E0));
#19=AXIS2_PLACEMENT_3D('',#16,#17,#18);
#21=CARTESIAN_POINT('',(-7.295610447339E0,0.E0,0.E0));
#22=DIRECTION('',(-1.E0,0.E0,0.E0));
#23=DIRECTION('',(0.E0,1.E0,0.E0));
#24=AXIS2_PLACEMENT_3D('',#21,#22,#23);
#26=DIRECTION('',(1.E0,0.E0,0.E0));
#27=VECTOR('',#26,7.295610447339E0);
#28=CARTESIAN_POINT('',(-7.295610447339E0,2.125E1,0.E0));
#29=LINE('',#28,#27);
#30=CARTESIAN_POINT('',(-7.295610447339E0,0.E0,0.E0));
#31=DIRECTION('',(1.E0,0.E0,0.E0));
#32=DIRECTION('',(0.E0,1.E0,0.E0));
#33=AXIS2_PLACEMENT_3D('',#30,#31,#32);
#35=DIRECTION('',(1.E0,0.E0,0.E0));
#36=VECTOR('',#35,7.295610447339E0);
#37=CARTESIAN_POINT('',(-7.295610447339E0,-2.125E1,0.E0));
#38=LINE('',#37,#36);
#39=DIRECTION('',(7.071067811865E-1,-7.071067811866E-1,4.745777485896E-10));
#40=VECTOR('',#39,4.242640687324E-1);
#41=CARTESIAN_POINT('',(-2.999999999544E-1,2.404999999995E1,
6.357688526143E-10));
#42=LINE('',#41,#40);
#43=CARTESIAN_POINT('',(-2.999999999999E-1,0.E0,0.E0));
#44=DIRECTION('',(-1.E0,0.E0,0.E0));
#45=DIRECTION('',(0.E0,1.E0,0.E0));
#46=AXIS2_PLACEMENT_3D('',#43,#44,#45);
#48=CARTESIAN_POINT('',(-3.E-1,0.E0,0.E0));
#49=DIRECTION('',(-1.E0,0.E0,0.E0));
#50=DIRECTION('',(0.E0,-1.E0,0.E0));
#51=AXIS2_PLACEMENT_3D('',#48,#49,#50);
#53=DIRECTION('',(-1.E0,-7.996098909643E-12,1.115362889769E-10));
#54=VECTOR('',#53,5.700000000046E0);
#55=CARTESIAN_POINT('',(-2.999999999544E-1,-2.404999999995E1,
-6.357621873461E-10));
#56=LINE('',#55,#54);
#57=DIRECTION('',(-1.E0,7.994852343440E-12,-1.115383951946E-10));
#58=VECTOR('',#57,5.700000000046E0);
#59=CARTESIAN_POINT('',(-2.999999999544E-1,2.404999999995E1,
6.357688526143E-10));
#60=LINE('',#59,#58);
#61=DIRECTION('',(7.071067811865E-1,7.071067811866E-1,-4.745907774642E-10));
#62=VECTOR('',#61,4.242640687324E-1);
#63=CARTESIAN_POINT('',(-2.999999999544E-1,-2.404999999995E1,
-6.357621873461E-10));
#64=LINE('',#63,#62);
#65=DIRECTION('',(-9.175556253099E-1,-3.976074376343E-1,0.E0));
#66=VECTOR('',#65,3.269556544854E0);
#67=CARTESIAN_POINT('',(-6.E0,2.405E1,0.E0));
#68=LINE('',#67,#66);
#69=CARTESIAN_POINT('',(-6.E0,0.E0,0.E0));
#70=DIRECTION('',(1.E0,0.E0,0.E0));
#71=DIRECTION('',(0.E0,1.E0,0.E0));
#72=AXIS2_PLACEMENT_3D('',#69,#70,#71);
#74=DIRECTION('',(-9.175556253099E-1,3.976074376343E-1,0.E0));
#75=VECTOR('',#74,3.269556544854E0);
#76=CARTESIAN_POINT('',(-6.E0,-2.405E1,0.E0));
#77=LINE('',#76,#75);
#78=CARTESIAN_POINT('',(-6.E0,0.E0,0.E0));
#79=DIRECTION('',(-1.E0,0.E0,0.E0));
#80=DIRECTION('',(0.E0,1.E0,0.E0));
#81=AXIS2_PLACEMENT_3D('',#78,#79,#80);
#83=CARTESIAN_POINT('',(-1.37E1,0.E0,0.E0));
#84=DIRECTION('',(-1.E0,0.E0,0.E0));
#85=DIRECTION('',(0.E0,1.E0,0.E0));
#86=AXIS2_PLACEMENT_3D('',#83,#84,#85);
#88=CARTESIAN_POINT('',(-9.E0,0.E0,0.E0));
#89=DIRECTION('',(-1.E0,0.E0,0.E0));
#90=DIRECTION('',(0.E0,1.E0,0.E0));
#91=AXIS2_PLACEMENT_3D('',#88,#89,#90);
#93=DIRECTION('',(7.071067811866E-1,7.071067811865E-1,1.986053691521E-9));
#94=VECTOR('',#93,4.242640687424E-1);
#95=CARTESIAN_POINT('',(-1.400000000009E1,2.244999999991E1,-3.511214083589E-9));
#96=LINE('',#95,#94);
#97=CARTESIAN_POINT('',(-1.4E1,0.E0,-1.695306731665E-13));
#98=DIRECTION('',(-1.E0,0.E0,0.E0));
#99=DIRECTION('',(0.E0,1.E0,0.E0));
#100=AXIS2_PLACEMENT_3D('',#97,#98,#99);
#102=CARTESIAN_POINT('',(-1.4E1,0.E0,0.E0));
#103=DIRECTION('',(-1.E0,0.E0,0.E0));
#104=DIRECTION('',(0.E0,-1.E0,0.E0));
#105=AXIS2_PLACEMENT_3D('',#102,#103,#104);
#107=CARTESIAN_POINT('',(-1.75E1,0.E0,0.E0));
#108=DIRECTION('',(-1.E0,0.E0,0.E0));
#109=DIRECTION('',(0.E0,1.E0,0.E0));
#110=AXIS2_PLACEMENT_3D('',#107,#108,#109);
#112=CARTESIAN_POINT('',(-1.4E1,0.E0,0.E0));
#113=DIRECTION('',(-1.E0,0.E0,0.E0));
#114=DIRECTION('',(0.E0,1.E0,0.E0));
#115=AXIS2_PLACEMENT_3D('',#112,#113,#114);
#117=DIRECTION('',(7.071067811865E-1,7.071067811866E-1,1.846023250924E-9));
#118=VECTOR('',#117,4.242640687440E-1);
#119=CARTESIAN_POINT('',(-1.780000000009E1,2.069999999991E1,
-3.275203398306E-9));
#120=LINE('',#119,#118);
#121=CARTESIAN_POINT('',(-1.78E1,0.E0,-1.442913113399E-13));
#122=DIRECTION('',(-1.E0,0.E0,0.E0));
#123=DIRECTION('',(0.E0,1.E0,0.E0));
#124=AXIS2_PLACEMENT_3D('',#121,#122,#123);
#126=CARTESIAN_POINT('',(-1.78E1,0.E0,0.E0));
#127=DIRECTION('',(-1.E0,0.E0,0.E0));
#128=DIRECTION('',(0.E0,-1.E0,0.E0));
#129=AXIS2_PLACEMENT_3D('',#126,#127,#128);
#131=DIRECTION('',(7.071067811865E-1,-7.071067811866E-1,-1.846018488583E-9));
#132=VECTOR('',#131,4.242640687440E-1);
#133=CARTESIAN_POINT('',(-1.780000000009E1,-2.069999999991E1,
3.275201507679E-9));
#134=LINE('',#133,#132);
#135=CARTESIAN_POINT('',(-1.75E1,0.E0,0.E0));
#136=DIRECTION('',(-1.E0,0.E0,0.E0));
#137=DIRECTION('',(0.E0,-1.E0,0.E0));
#138=AXIS2_PLACEMENT_3D('',#135,#136,#137);
#140=DIRECTION('',(-1.E0,-2.061081464187E-11,-7.120005893776E-10));
#141=VECTOR('',#140,3.500000000072E0);
#142=CARTESIAN_POINT('',(-1.4E1,2.1E1,0.E0));
#143=LINE('',#142,#141);
#144=CARTESIAN_POINT('',(-1.4E1,0.E0,0.E0));
#145=DIRECTION('',(1.E0,0.E0,0.E0));
#146=DIRECTION('',(0.E0,1.E0,0.E0));
#147=AXIS2_PLACEMENT_3D('',#144,#145,#146);
#149=DIRECTION('',(-1.E0,2.060979958082E-11,7.120015146598E-10));
#150=VECTOR('',#149,3.500000000072E0);
#151=CARTESIAN_POINT('',(-1.4E1,-2.1E1,0.E0));
#152=LINE('',#151,#150);
#153=DIRECTION('',(7.071067811866E-1,-7.071067811865E-1,-1.986051442407E-9));
#154=VECTOR('',#153,4.242640687424E-1);
#155=CARTESIAN_POINT('',(-1.400000000009E1,-2.244999999991E1,
3.511206662513E-9));
#156=LINE('',#155,#154);
#157=CARTESIAN_POINT('',(-1.37E1,0.E0,0.E0));
#158=DIRECTION('',(-1.E0,0.E0,0.E0));
#159=DIRECTION('',(0.E0,-1.E0,0.E0));
#160=AXIS2_PLACEMENT_3D('',#157,#158,#159);
#162=DIRECTION('',(-1.E0,-1.453815791136E-11,-5.677878433286E-10));
#163=VECTOR('',#162,4.700000000068E0);
#164=CARTESIAN_POINT('',(-9.E0,2.275E1,0.E0));
#165=LINE('',#164,#163);
#166=CARTESIAN_POINT('',(-9.E0,0.E0,0.E0));
#167=DIRECTION('',(1.E0,0.E0,0.E0));
#168=DIRECTION('',(0.E0,1.E0,0.E0));
#169=AXIS2_PLACEMENT_3D('',#166,#167,#168);
#171=DIRECTION('',(-1.E0,1.453740201483E-11,5.677875421918E-10));
#172=VECTOR('',#171,4.700000000068E0);
#173=CARTESIAN_POINT('',(-9.E0,-2.275E1,0.E0));
#174=LINE('',#173,#172);
#175=CARTESIAN_POINT('',(-6.E0,2.405E1,0.E0));
#176=CARTESIAN_POINT('',(-9.E0,2.275E1,0.E0));
#177=VERTEX_POINT('',#175);
#178=VERTEX_POINT('',#176);
#179=CARTESIAN_POINT('',(-7.295610447339E0,2.125E1,0.E0));
#180=CARTESIAN_POINT('',(0.E0,2.125E1,0.E0));
#181=VERTEX_POINT('',#179);
#182=VERTEX_POINT('',#180);
#183=CARTESIAN_POINT('',(-6.E0,-2.405E1,0.E0));
#184=CARTESIAN_POINT('',(-9.E0,-2.275E1,0.E0));
#185=VERTEX_POINT('',#183);
#186=VERTEX_POINT('',#184);
#187=CARTESIAN_POINT('',(-7.295610447339E0,-2.125E1,0.E0));
#188=CARTESIAN_POINT('',(0.E0,-2.125E1,0.E0));
#189=VERTEX_POINT('',#187);
#190=VERTEX_POINT('',#188);
#191=CARTESIAN_POINT('',(-1.4E1,2.1E1,0.E0));
#192=CARTESIAN_POINT('',(-1.4E1,-2.1E1,0.E0));
#193=VERTEX_POINT('',#191);
#194=VERTEX_POINT('',#192);
#195=CARTESIAN_POINT('',(-2.999999999999E-1,2.405E1,0.E0));
#196=CARTESIAN_POINT('',(-2.999999999999E-1,-2.405E1,0.E0));
#197=VERTEX_POINT('',#195);
#198=VERTEX_POINT('',#196);
#199=CARTESIAN_POINT('',(0.E0,2.375E1,0.E0));
#200=CARTESIAN_POINT('',(0.E0,-2.375E1,-1.295143657223E-14));
#201=VERTEX_POINT('',#199);
#202=VERTEX_POINT('',#200);
#203=CARTESIAN_POINT('',(-1.4E1,2.245E1,0.E0));
#204=CARTESIAN_POINT('',(-1.4E1,-2.245E1,-1.280718727964E-14));
#205=VERTEX_POINT('',#203);
#206=VERTEX_POINT('',#204);
#207=CARTESIAN_POINT('',(-1.37E1,2.275E1,0.E0));
#208=CARTESIAN_POINT('',(-1.37E1,-2.275E1,0.E0));
#209=VERTEX_POINT('',#207);
#210=VERTEX_POINT('',#208);
#211=CARTESIAN_POINT('',(-1.78E1,2.07E1,0.E0));
#212=CARTESIAN_POINT('',(-1.78E1,-2.07E1,-1.533824223718E-14));
#213=VERTEX_POINT('',#211);
#214=VERTEX_POINT('',#212);
#215=CARTESIAN_POINT('',(-1.75E1,2.1E1,0.E0));
#216=CARTESIAN_POINT('',(-1.75E1,-2.1E1,0.E0));
#217=VERTEX_POINT('',#215);
#218=VERTEX_POINT('',#216);
#219=CARTESIAN_POINT('',(0.E0,0.E0,0.E0));
#220=DIRECTION('',(-1.E0,0.E0,0.E0));
#221=DIRECTION('',(0.E0,1.E0,0.E0));
#222=AXIS2_PLACEMENT_3D('',#219,#220,#221);
#223=PLANE('',#222);
#225=ORIENTED_EDGE('',*,*,#224,.T.);
#227=ORIENTED_EDGE('',*,*,#226,.T.);
#228=EDGE_LOOP('',(#225,#227));
#229=FACE_OUTER_BOUND('',#228,.F.);
#231=ORIENTED_EDGE('',*,*,#230,.F.);
#233=ORIENTED_EDGE('',*,*,#232,.T.);
#234=EDGE_LOOP('',(#231,#233));
#235=FACE_BOUND('',#234,.F.);
#237=CARTESIAN_POINT('',(8.9E-1,0.E0,0.E0));
#238=DIRECTION('',(-1.E0,0.E0,0.E0));
#239=DIRECTION('',(0.E0,1.E0,0.E0));
#240=AXIS2_PLACEMENT_3D('',#237,#238,#239);
#241=CYLINDRICAL_SURFACE('',#240,2.125E1);
#243=ORIENTED_EDGE('',*,*,#242,.T.);
#244=ORIENTED_EDGE('',*,*,#230,.T.);
#246=ORIENTED_EDGE('',*,*,#245,.F.);
#248=ORIENTED_EDGE('',*,*,#247,.F.);
#249=EDGE_LOOP('',(#243,#244,#246,#248));
#250=FACE_OUTER_BOUND('',#249,.F.);
#252=CARTESIAN_POINT('',(8.9E-1,0.E0,0.E0));
#253=DIRECTION('',(-1.E0,0.E0,0.E0));
#254=DIRECTION('',(0.E0,1.E0,0.E0));
#255=AXIS2_PLACEMENT_3D('',#252,#253,#254);
#256=CYLINDRICAL_SURFACE('',#255,2.125E1);
#257=ORIENTED_EDGE('',*,*,#242,.F.);
#259=ORIENTED_EDGE('',*,*,#258,.T.);
#260=ORIENTED_EDGE('',*,*,#245,.T.);
#261=ORIENTED_EDGE('',*,*,#232,.F.);
#262=EDGE_LOOP('',(#257,#259,#260,#261));
#263=FACE_OUTER_BOUND('',#262,.F.);
#265=CARTESIAN_POINT('',(-7.295610447339E0,0.E0,0.E0));
#266=DIRECTION('',(-1.E0,0.E0,0.E0));
#267=DIRECTION('',(0.E0,1.E0,0.E0));
#268=AXIS2_PLACEMENT_3D('',#265,#266,#267);
#269=PLANE('',#268);
#270=ORIENTED_EDGE('',*,*,#258,.F.);
#271=ORIENTED_EDGE('',*,*,#247,.T.);
#272=EDGE_LOOP('',(#270,#271));
#273=FACE_OUTER_BOUND('',#272,.F.);
#275=CARTESIAN_POINT('',(-1.499999999514E-1,0.E0,-1.895960280561E-13));
#276=DIRECTION('',(-1.E0,0.E0,0.E0));
#277=DIRECTION('',(0.E0,0.E0,-1.E0));
#278=AXIS2_PLACEMENT_3D('',#275,#276,#277);
#279=CONICAL_SURFACE('',#278,2.389999999995E1,4.5E1);
#281=ORIENTED_EDGE('',*,*,#280,.T.);
#283=ORIENTED_EDGE('',*,*,#282,.T.);
#284=ORIENTED_EDGE('',*,*,#224,.F.);
#286=ORIENTED_EDGE('',*,*,#285,.F.);
#287=EDGE_LOOP('',(#281,#283,#284,#286));
#288=FACE_OUTER_BOUND('',#287,.F.);
#290=CARTESIAN_POINT('',(8.9E-1,0.E0,0.E0));
#291=DIRECTION('',(-1.E0,0.E0,0.E0));
#292=DIRECTION('',(0.E0,1.E0,0.E0));
#293=AXIS2_PLACEMENT_3D('',#290,#291,#292);
#294=CYLINDRICAL_SURFACE('',#293,2.405E1);
#295=ORIENTED_EDGE('',*,*,#280,.F.);
#297=ORIENTED_EDGE('',*,*,#296,.T.);
#299=ORIENTED_EDGE('',*,*,#298,.T.);
#301=ORIENTED_EDGE('',*,*,#300,.F.);
#302=EDGE_LOOP('',(#295,#297,#299,#301));
#303=FACE_OUTER_BOUND('',#302,.F.);
#305=CARTESIAN_POINT('',(8.9E-1,0.E0,0.E0));
#306=DIRECTION('',(-1.E0,0.E0,0.E0));
#307=DIRECTION('',(0.E0,1.E0,0.E0));
#308=AXIS2_PLACEMENT_3D('',#305,#306,#307);
#309=CYLINDRICAL_SURFACE('',#308,2.405E1);
#311=ORIENTED_EDGE('',*,*,#310,.F.);
#312=ORIENTED_EDGE('',*,*,#300,.T.);
#314=ORIENTED_EDGE('',*,*,#313,.F.);
#315=ORIENTED_EDGE('',*,*,#296,.F.);
#316=EDGE_LOOP('',(#311,#312,#314,#315));
#317=FACE_OUTER_BOUND('',#316,.F.);
#319=CARTESIAN_POINT('',(-1.499999999514E-1,0.E0,0.E0));
#320=DIRECTION('',(-1.E0,0.E0,0.E0));
#321=DIRECTION('',(0.E0,0.E0,-1.E0));
#322=AXIS2_PLACEMENT_3D('',#319,#320,#321);
#323=CONICAL_SURFACE('',#322,2.389999999995E1,4.5E1);
#324=ORIENTED_EDGE('',*,*,#310,.T.);
#325=ORIENTED_EDGE('',*,*,#285,.T.);
#326=ORIENTED_EDGE('',*,*,#226,.F.);
#327=ORIENTED_EDGE('',*,*,#282,.F.);
#328=EDGE_LOOP('',(#324,#325,#326,#327));
#329=FACE_OUTER_BOUND('',#328,.F.);
#331=CARTESIAN_POINT('',(-7.5E0,0.E0,0.E0));
#332=DIRECTION('',(1.E0,0.E0,0.E0));
#333=DIRECTION('',(0.E0,-1.E0,0.E0));
#334=AXIS2_PLACEMENT_3D('',#331,#332,#333);
#335=CONICAL_SURFACE('',#334,2.34E1,2.342869280875E1);
#337=ORIENTED_EDGE('',*,*,#336,.F.);
#338=ORIENTED_EDGE('',*,*,#313,.T.);
#340=ORIENTED_EDGE('',*,*,#339,.T.);
#342=ORIENTED_EDGE('',*,*,#341,.F.);
#343=EDGE_LOOP('',(#337,#338,#340,#342));
#344=FACE_OUTER_BOUND('',#343,.F.);
#346=CARTESIAN_POINT('',(-7.5E0,0.E0,0.E0));
#347=DIRECTION('',(1.E0,0.E0,0.E0));
#348=DIRECTION('',(0.E0,-1.E0,0.E0));
#349=AXIS2_PLACEMENT_3D('',#346,#347,#348);
#350=CONICAL_SURFACE('',#349,2.34E1,2.342869280875E1);
#351=ORIENTED_EDGE('',*,*,#336,.T.);
#353=ORIENTED_EDGE('',*,*,#352,.T.);
#354=ORIENTED_EDGE('',*,*,#339,.F.);
#355=ORIENTED_EDGE('',*,*,#298,.F.);
#356=EDGE_LOOP('',(#351,#353,#354,#355));
#357=FACE_OUTER_BOUND('',#356,.F.);
#359=CARTESIAN_POINT('',(8.9E-1,0.E0,0.E0));
#360=DIRECTION('',(-1.E0,0.E0,0.E0));
#361=DIRECTION('',(0.E0,1.E0,0.E0));
#362=AXIS2_PLACEMENT_3D('',#359,#360,#361);
#363=CYLINDRICAL_SURFACE('',#362,2.275E1);
#365=ORIENTED_EDGE('',*,*,#364,.T.);
#367=ORIENTED_EDGE('',*,*,#366,.F.);
#368=ORIENTED_EDGE('',*,*,#352,.F.);
#370=ORIENTED_EDGE('',*,*,#369,.T.);
#371=EDGE_LOOP('',(#365,#367,#368,#370));
#372=FACE_OUTER_BOUND('',#371,.F.);
#374=CARTESIAN_POINT('',(-1.385000000009E1,0.E0,-1.695306731665E-13));
#375=DIRECTION('',(1.E0,0.E0,0.E0));
#376=DIRECTION('',(0.E0,0.E0,-1.E0));
#377=AXIS2_PLACEMENT_3D('',#374,#375,#376);
#378=CONICAL_SURFACE('',#377,2.259999999991E1,4.5E1);
#380=ORIENTED_EDGE('',*,*,#379,.T.);
#382=ORIENTED_EDGE('',*,*,#381,.T.);
#383=ORIENTED_EDGE('',*,*,#364,.F.);
#385=ORIENTED_EDGE('',*,*,#384,.F.);
#386=EDGE_LOOP('',(#380,#382,#383,#385));
#387=FACE_OUTER_BOUND('',#386,.F.);
#389=CARTESIAN_POINT('',(-1.4E1,0.E0,0.E0));
#390=DIRECTION('',(-1.E0,0.E0,0.E0));
#391=DIRECTION('',(0.E0,1.E0,0.E0));
#392=AXIS2_PLACEMENT_3D('',#389,#390,#391);
#393=PLANE('',#392);
#394=ORIENTED_EDGE('',*,*,#379,.F.);
#396=ORIENTED_EDGE('',*,*,#395,.F.);
#397=EDGE_LOOP('',(#394,#396));
#398=FACE_OUTER_BOUND('',#397,.F.);
#400=ORIENTED_EDGE('',*,*,#399,.T.);
#402=ORIENTED_EDGE('',*,*,#401,.F.);
#403=EDGE_LOOP('',(#400,#402));
#404=FACE_BOUND('',#403,.F.);
#406=CARTESIAN_POINT('',(8.9E-1,0.E0,0.E0));
#407=DIRECTION('',(-1.E0,0.E0,0.E0));
#408=DIRECTION('',(0.E0,1.E0,0.E0));
#409=AXIS2_PLACEMENT_3D('',#406,#407,#408);
#410=CYLINDRICAL_SURFACE('',#409,2.1E1);
#412=ORIENTED_EDGE('',*,*,#411,.T.);
#414=ORIENTED_EDGE('',*,*,#413,.F.);
#415=ORIENTED_EDGE('',*,*,#399,.F.);
#417=ORIENTED_EDGE('',*,*,#416,.T.);
#418=EDGE_LOOP('',(#412,#414,#415,#417));
#419=FACE_OUTER_BOUND('',#418,.F.);
#421=CARTESIAN_POINT('',(-1.765000000009E1,0.E0,-1.442913113399E-13));
#422=DIRECTION('',(1.E0,0.E0,0.E0));
#423=DIRECTION('',(0.E0,0.E0,-1.E0));
#424=AXIS2_PLACEMENT_3D('',#421,#422,#423);
#425=CONICAL_SURFACE('',#424,2.084999999991E1,4.5E1);
#427=ORIENTED_EDGE('',*,*,#426,.T.);
#429=ORIENTED_EDGE('',*,*,#428,.T.);
#430=ORIENTED_EDGE('',*,*,#411,.F.);
#432=ORIENTED_EDGE('',*,*,#431,.F.);
#433=EDGE_LOOP('',(#427,#429,#430,#432));
#434=FACE_OUTER_BOUND('',#433,.F.);
#436=CARTESIAN_POINT('',(-1.78E1,0.E0,0.E0));
#437=DIRECTION('',(-1.E0,0.E0,0.E0));
#438=DIRECTION('',(0.E0,1.E0,0.E0));
#439=AXIS2_PLACEMENT_3D('',#436,#437,#438);
#440=PLANE('',#439);
#441=ORIENTED_EDGE('',*,*,#426,.F.);
#443=ORIENTED_EDGE('',*,*,#442,.F.);
#444=EDGE_LOOP('',(#441,#443));
#445=FACE_OUTER_BOUND('',#444,.F.);
#447=CARTESIAN_POINT('',(-1.765000000009E1,0.E0,0.E0));
#448=DIRECTION('',(1.E0,0.E0,0.E0));
#449=DIRECTION('',(0.E0,0.E0,-1.E0));
#450=AXIS2_PLACEMENT_3D('',#447,#448,#449);
#451=CONICAL_SURFACE('',#450,2.084999999991E1,4.5E1);
#452=ORIENTED_EDGE('',*,*,#442,.T.);
#453=ORIENTED_EDGE('',*,*,#431,.T.);
#455=ORIENTED_EDGE('',*,*,#454,.F.);
#456=ORIENTED_EDGE('',*,*,#428,.F.);
#457=EDGE_LOOP('',(#452,#453,#455,#456));
#458=FACE_OUTER_BOUND('',#457,.F.);
#460=CARTESIAN_POINT('',(8.9E-1,0.E0,0.E0));
#461=DIRECTION('',(-1.E0,0.E0,0.E0));
#462=DIRECTION('',(0.E0,1.E0,0.E0));
#463=AXIS2_PLACEMENT_3D('',#460,#461,#462);
#464=CYLINDRICAL_SURFACE('',#463,2.1E1);
#465=ORIENTED_EDGE('',*,*,#454,.T.);
#466=ORIENTED_EDGE('',*,*,#416,.F.);
#467=ORIENTED_EDGE('',*,*,#401,.T.);
#468=ORIENTED_EDGE('',*,*,#413,.T.);
#469=EDGE_LOOP('',(#465,#466,#467,#468));
#470=FACE_OUTER_BOUND('',#469,.F.);
#472=CARTESIAN_POINT('',(-1.385000000009E1,0.E0,0.E0));
#473=DIRECTION('',(1.E0,0.E0,0.E0));
#474=DIRECTION('',(0.E0,0.E0,-1.E0));
#475=AXIS2_PLACEMENT_3D('',#472,#473,#474);
#476=CONICAL_SURFACE('',#475,2.259999999991E1,4.5E1);
#477=ORIENTED_EDGE('',*,*,#395,.T.);
#478=ORIENTED_EDGE('',*,*,#384,.T.);
#480=ORIENTED_EDGE('',*,*,#479,.F.);
#481=ORIENTED_EDGE('',*,*,#381,.F.);
#482=EDGE_LOOP('',(#477,#478,#480,#481));
#483=FACE_OUTER_BOUND('',#482,.F.);
#485=CARTESIAN_POINT('',(8.9E-1,0.E0,0.E0));
#486=DIRECTION('',(-1.E0,0.E0,0.E0));
#487=DIRECTION('',(0.E0,1.E0,0.E0));
#488=AXIS2_PLACEMENT_3D('',#485,#486,#487);
#489=CYLINDRICAL_SURFACE('',#488,2.275E1);
#490=ORIENTED_EDGE('',*,*,#479,.T.);
#491=ORIENTED_EDGE('',*,*,#369,.F.);
#492=ORIENTED_EDGE('',*,*,#341,.T.);
#493=ORIENTED_EDGE('',*,*,#366,.T.);
#494=EDGE_LOOP('',(#490,#491,#492,#493));
#495=FACE_OUTER_BOUND('',#494,.F.);
#497=CLOSED_SHELL('',(#236,#251,#264,#274,#289,#304,#318,#330,#345,#358,#373,
#388,#405,#420,#435,#446,#459,#471,#484,#496));
#498=MANIFOLD_SOLID_BREP('',#497);
#500=DIMENSIONAL_EXPONENTS(0.E0,0.E0,0.E0,0.E0,0.E0,0.E0,0.E0);
#502=PLANE_ANGLE_MEASURE_WITH_UNIT(PLANE_ANGLE_MEASURE(1.745329251994E-2),#501);
#503=(CONVERSION_BASED_UNIT('DEGREE',#502)NAMED_UNIT(*)PLANE_ANGLE_UNIT());
#505=UNCERTAINTY_MEASURE_WITH_UNIT(LENGTH_MEASURE(7.032376214569E-3),#499,
'closure',
'Maximum model space distance between geometric entities at asserted connectivities');
#508=APPLICATION_CONTEXT(
'CONFIGURATION CONTROLLED 3D DESIGNS OF MECHANICAL PARTS AND ASSEMBLIES');
#509=APPLICATION_PROTOCOL_DEFINITION('international standard',
'config_control_design',1994,#508);
#510=DESIGN_CONTEXT('',#508,'design');
#511=MECHANICAL_CONTEXT('',#508,'mechanical');
#512=PRODUCT('AT4214','AT4214','NOT SPECIFIED',(#511));
#513=PRODUCT_DEFINITION_FORMATION_WITH_SPECIFIED_SOURCE('2','LAST_VERSION',#512,
.MADE.);
#517=PRODUCT_CATEGORY('part','');
#518=PRODUCT_RELATED_PRODUCT_CATEGORY('detail','',(#512));
#519=PRODUCT_CATEGORY_RELATIONSHIP('','',#517,#518);
#520=SECURITY_CLASSIFICATION_LEVEL('unclassified');
#521=SECURITY_CLASSIFICATION('','',#520);
#522=CC_DESIGN_SECURITY_CLASSIFICATION(#521,(#513));
#523=APPROVAL_STATUS('approved');
#524=APPROVAL(#523,'');
#525=CC_DESIGN_APPROVAL(#524,(#521,#513,#514));
#526=CALENDAR_DATE(121,6,1);
#527=COORDINATED_UNIVERSAL_TIME_OFFSET(8,0,.AHEAD.);
#528=LOCAL_TIME(10,23,1.5E1,#527);
#529=DATE_AND_TIME(#526,#528);
#530=APPROVAL_DATE_TIME(#529,#524);
#531=DATE_TIME_ROLE('creation_date');
#532=CC_DESIGN_DATE_AND_TIME_ASSIGNMENT(#529,#531,(#514));
#533=DATE_TIME_ROLE('classification_date');
#534=CC_DESIGN_DATE_AND_TIME_ASSIGNMENT(#529,#533,(#521));
#535=PERSON('UNSPECIFIED','UNSPECIFIED',$,$,$,$);
#536=ORGANIZATION('UNSPECIFIED','UNSPECIFIED','UNSPECIFIED');
#537=PERSON_AND_ORGANIZATION(#535,#536);
#538=APPROVAL_ROLE('approver');
#539=APPROVAL_PERSON_ORGANIZATION(#537,#524,#538);
#540=PERSON_AND_ORGANIZATION_ROLE('creator');
#541=CC_DESIGN_PERSON_AND_ORGANIZATION_ASSIGNMENT(#537,#540,(#513,#514));
#542=PERSON_AND_ORGANIZATION_ROLE('design_supplier');
#543=CC_DESIGN_PERSON_AND_ORGANIZATION_ASSIGNMENT(#537,#542,(#513));
#544=PERSON_AND_ORGANIZATION_ROLE('classification_officer');
#545=CC_DESIGN_PERSON_AND_ORGANIZATION_ASSIGNMENT(#537,#544,(#521));
#546=PERSON_AND_ORGANIZATION_ROLE('design_owner');
#547=CC_DESIGN_PERSON_AND_ORGANIZATION_ASSIGNMENT(#537,#546,(#512));
#5=CIRCLE('',#4,2.125E1);
#10=CIRCLE('',#9,2.125E1);
#15=CIRCLE('',#14,2.375E1);
#20=CIRCLE('',#19,2.375E1);
#25=CIRCLE('',#24,2.125E1);
#34=CIRCLE('',#33,2.125E1);
#47=CIRCLE('',#46,2.405E1);
#52=CIRCLE('',#51,2.405E1);
#73=CIRCLE('',#72,2.405E1);
#82=CIRCLE('',#81,2.405E1);
#87=CIRCLE('',#86,2.275E1);
#92=CIRCLE('',#91,2.275E1);
#101=CIRCLE('',#100,2.245E1);
#106=CIRCLE('',#105,2.245E1);
#111=CIRCLE('',#110,2.1E1);
#116=CIRCLE('',#115,2.1E1);
#125=CIRCLE('',#124,2.07E1);
#130=CIRCLE('',#129,2.07E1);
#139=CIRCLE('',#138,2.1E1);
#148=CIRCLE('',#147,2.1E1);
#161=CIRCLE('',#160,2.275E1);
#170=CIRCLE('',#169,2.275E1);
#224=EDGE_CURVE('',#201,#202,#15,.T.);
#226=EDGE_CURVE('',#202,#201,#20,.T.);
#230=EDGE_CURVE('',#182,#190,#5,.T.);
#232=EDGE_CURVE('',#182,#190,#10,.T.);
#236=ADVANCED_FACE('',(#229,#235),#223,.F.);
#242=EDGE_CURVE('',#181,#182,#29,.T.);
#245=EDGE_CURVE('',#189,#190,#38,.T.);
#247=EDGE_CURVE('',#181,#189,#25,.T.);
#251=ADVANCED_FACE('',(#250),#241,.F.);
#258=EDGE_CURVE('',#181,#189,#34,.T.);
#264=ADVANCED_FACE('',(#263),#256,.F.);
#274=ADVANCED_FACE('',(#273),#269,.F.);
#280=EDGE_CURVE('',#197,#198,#47,.T.);
#282=EDGE_CURVE('',#198,#202,#64,.T.);
#285=EDGE_CURVE('',#197,#201,#42,.T.);
#289=ADVANCED_FACE('',(#288),#279,.T.);
#296=EDGE_CURVE('',#197,#177,#60,.T.);
#298=EDGE_CURVE('',#177,#185,#82,.T.);
#300=EDGE_CURVE('',#198,#185,#56,.T.);
#304=ADVANCED_FACE('',(#303),#294,.T.);
#310=EDGE_CURVE('',#198,#197,#52,.T.);
#313=EDGE_CURVE('',#177,#185,#73,.T.);
#318=ADVANCED_FACE('',(#317),#309,.T.);
#330=ADVANCED_FACE('',(#329),#323,.T.);
#336=EDGE_CURVE('',#177,#178,#68,.T.);
#339=EDGE_CURVE('',#185,#186,#77,.T.);
#341=EDGE_CURVE('',#178,#186,#170,.T.);
#345=ADVANCED_FACE('',(#344),#335,.T.);
#352=EDGE_CURVE('',#178,#186,#92,.T.);
#358=ADVANCED_FACE('',(#357),#350,.T.);
#364=EDGE_CURVE('',#209,#210,#87,.T.);
#366=EDGE_CURVE('',#186,#210,#174,.T.);
#369=EDGE_CURVE('',#178,#209,#165,.T.);
#373=ADVANCED_FACE('',(#372),#363,.T.);
#379=EDGE_CURVE('',#205,#206,#101,.T.);
#381=EDGE_CURVE('',#206,#210,#156,.T.);
#384=EDGE_CURVE('',#205,#209,#96,.T.);
#388=ADVANCED_FACE('',(#387),#378,.T.);
#395=EDGE_CURVE('',#206,#205,#106,.T.);
#399=EDGE_CURVE('',#193,#194,#116,.T.);
#401=EDGE_CURVE('',#193,#194,#148,.T.);
#405=ADVANCED_FACE('',(#398,#404),#393,.T.);
#411=EDGE_CURVE('',#217,#218,#111,.T.);
#413=EDGE_CURVE('',#194,#218,#152,.T.);
#416=EDGE_CURVE('',#193,#217,#143,.T.);
#420=ADVANCED_FACE('',(#419),#410,.T.);
#426=EDGE_CURVE('',#213,#214,#125,.T.);
#428=EDGE_CURVE('',#214,#218,#134,.T.);
#431=EDGE_CURVE('',#213,#217,#120,.T.);
#435=ADVANCED_FACE('',(#434),#425,.T.);
#442=EDGE_CURVE('',#214,#213,#130,.T.);
#446=ADVANCED_FACE('',(#445),#440,.T.);
#454=EDGE_CURVE('',#218,#217,#139,.T.);
#459=ADVANCED_FACE('',(#458),#451,.T.);
#471=ADVANCED_FACE('',(#470),#464,.T.);
#479=EDGE_CURVE('',#210,#209,#161,.T.);
#484=ADVANCED_FACE('',(#483),#476,.T.);
#496=ADVANCED_FACE('',(#495),#489,.T.);
#499=(LENGTH_UNIT()NAMED_UNIT(*)SI_UNIT(.MILLI.,.METRE.));
#501=(NAMED_UNIT(*)PLANE_ANGLE_UNIT()SI_UNIT($,.RADIAN.));
#504=(NAMED_UNIT(*)SI_UNIT($,.STERADIAN.)SOLID_ANGLE_UNIT());
#506=(GEOMETRIC_REPRESENTATION_CONTEXT(3)GLOBAL_UNCERTAINTY_ASSIGNED_CONTEXT((
#505))GLOBAL_UNIT_ASSIGNED_CONTEXT((#499,#503,#504))REPRESENTATION_CONTEXT
('ID1','3'));
#507=ADVANCED_BREP_SHAPE_REPRESENTATION('',(#498),#506);
#514=PRODUCT_DEFINITION('design','',#513,#510);
#515=PRODUCT_DEFINITION_SHAPE('','SHAPE FOR AT4214.',#514);
#516=SHAPE_DEFINITION_REPRESENTATION(#515,#507);
ENDSEC;
END-ISO-10303-21;
